ISO-10303-21;
HEADER;
/* Generated by software containing ST-Developer
 * from STEP Tools, Inc. (www.steptools.com) 
 */

FILE_DESCRIPTION(
/* description */ (''),
/* implementation_level */ '2;1');

FILE_NAME(
/* name */ 'QA_160_N.dxf',
/* time_stamp */ '2012-11-23T16:41:10+08:00',
/* author */ (''),
/* organization */ (''),
/* preprocessor_version */ 'ST-DEVELOPER v9',
/* originating_system */ 'UGS - NX 4.0',
/* authorisation */ '');

FILE_SCHEMA (('CONFIG_CONTROL_DESIGN'));
ENDSEC;

DATA;
#10=SHAPE_REPRESENTATION_RELATIONSHIP('None',
'relationship between AdmiDFCFxmse-None and AdmiDFCFxmse-None',#94,#11);
#11=ADVANCED_BREP_SHAPE_REPRESENTATION('AdmiDFCFxmse-None',(#95),#631);
#12=CC_DESIGN_APPROVAL(#24,(#82));
#13=CC_DESIGN_APPROVAL(#25,(#84));
#14=CC_DESIGN_APPROVAL(#26,(#31));
#15=APPROVAL_PERSON_ORGANIZATION(#69,#24,#18);
#16=APPROVAL_PERSON_ORGANIZATION(#70,#25,#19);
#17=APPROVAL_PERSON_ORGANIZATION(#71,#26,#20);
#18=APPROVAL_ROLE('approver');
#19=APPROVAL_ROLE('approver');
#20=APPROVAL_ROLE('approver');
#21=APPROVAL_DATE_TIME(#39,#24);
#22=APPROVAL_DATE_TIME(#40,#25);
#23=APPROVAL_DATE_TIME(#41,#26);
#24=APPROVAL(#27,' ');
#25=APPROVAL(#28,' ');
#26=APPROVAL(#29,' ');
#27=APPROVAL_STATUS('not_yet_approved');
#28=APPROVAL_STATUS('not_yet_approved');
#29=APPROVAL_STATUS('not_yet_approved');
#30=CC_DESIGN_SECURITY_CLASSIFICATION(#31,(#84));
#31=SECURITY_CLASSIFICATION(' ',' ',#32);
#32=SECURITY_CLASSIFICATION_LEVEL('confidential');
#33=CC_DESIGN_DATE_AND_TIME_ASSIGNMENT(#37,#35,(#82));
#34=CC_DESIGN_DATE_AND_TIME_ASSIGNMENT(#38,#36,(#31));
#35=DATE_TIME_ROLE('creation_date');
#36=DATE_TIME_ROLE('classification_date');
#37=DATE_AND_TIME(#52,#42);
#38=DATE_AND_TIME(#53,#43);
#39=DATE_AND_TIME(#54,#44);
#40=DATE_AND_TIME(#55,#45);
#41=DATE_AND_TIME(#56,#46);
#42=LOCAL_TIME(0,0,0.,#47);
#43=LOCAL_TIME(0,0,0.,#48);
#44=LOCAL_TIME(0,0,0.,#49);
#45=LOCAL_TIME(0,0,0.,#50);
#46=LOCAL_TIME(0,0,0.,#51);
#47=COORDINATED_UNIVERSAL_TIME_OFFSET(0,0,.BEHIND.);
#48=COORDINATED_UNIVERSAL_TIME_OFFSET(0,0,.BEHIND.);
#49=COORDINATED_UNIVERSAL_TIME_OFFSET(0,0,.BEHIND.);
#50=COORDINATED_UNIVERSAL_TIME_OFFSET(0,0,.BEHIND.);
#51=COORDINATED_UNIVERSAL_TIME_OFFSET(0,0,.BEHIND.);
#52=CALENDAR_DATE(0,1,1);
#53=CALENDAR_DATE(0,1,1);
#54=CALENDAR_DATE(0,1,1);
#55=CALENDAR_DATE(0,1,1);
#56=CALENDAR_DATE(0,1,1);
#57=CC_DESIGN_PERSON_AND_ORGANIZATION_ASSIGNMENT(#65,#61,(#82,#84));
#58=CC_DESIGN_PERSON_AND_ORGANIZATION_ASSIGNMENT(#66,#62,(#86));
#59=CC_DESIGN_PERSON_AND_ORGANIZATION_ASSIGNMENT(#67,#63,(#84));
#60=CC_DESIGN_PERSON_AND_ORGANIZATION_ASSIGNMENT(#68,#64,(#31));
#61=PERSON_AND_ORGANIZATION_ROLE('creator');
#62=PERSON_AND_ORGANIZATION_ROLE('design_owner');
#63=PERSON_AND_ORGANIZATION_ROLE('design_supplier');
#64=PERSON_AND_ORGANIZATION_ROLE('classification_officer');
#65=PERSON_AND_ORGANIZATION(#79,#72);
#66=PERSON_AND_ORGANIZATION(#79,#73);
#67=PERSON_AND_ORGANIZATION(#79,#74);
#68=PERSON_AND_ORGANIZATION(#79,#75);
#69=PERSON_AND_ORGANIZATION(#79,#76);
#70=PERSON_AND_ORGANIZATION(#79,#77);
#71=PERSON_AND_ORGANIZATION(#79,#78);
#72=ORGANIZATION(' ',' ',' ');
#73=ORGANIZATION(' ',' ',' ');
#74=ORGANIZATION(' ',' ',' ');
#75=ORGANIZATION(' ',' ',' ');
#76=ORGANIZATION(' ',' ',' ');
#77=ORGANIZATION(' ',' ',' ');
#78=ORGANIZATION(' ',' ',' ');
#79=PERSON(' ',' ',' ',(' '),$,$);
#80=SHAPE_DEFINITION_REPRESENTATION(#81,#94);
#81=PRODUCT_DEFINITION_SHAPE('','',#82);
#82=PRODUCT_DEFINITION(' ','',#84,#83);
#83=DESIGN_CONTEXT('',#93,'design');
#84=PRODUCT_DEFINITION_FORMATION_WITH_SPECIFIED_SOURCE(' ',' ',#86,.NOT_KNOWN.);
#85=PRODUCT_RELATED_PRODUCT_CATEGORY('detail','',(#86));
#86=PRODUCT('AdmiDFCFxmse','AdmiDFCFxmse',' ',(#91));
#87=PRODUCT_CATEGORY_RELATIONSHIP(' ',' ',#89,#90);
#88=PRODUCT_CATEGORY_RELATIONSHIP('','',#90,#85);
#89=PRODUCT_CATEGORY('part',' ');
#90=PRODUCT_CATEGORY(' ','');
#91=MECHANICAL_CONTEXT(' ',#93,'mechanical');
#92=APPLICATION_PROTOCOL_DEFINITION('international standard',
'config_control_design',1994,#93);
#93=APPLICATION_CONTEXT(
'configuration controlled 3D designs of mechanical parts and assemblies
');
#94=SHAPE_REPRESENTATION('AdmiDFCFxmse-None',(#392),#631);
#95=MANIFOLD_SOLID_BREP('',#96);
#96=CLOSED_SHELL('',(#122,#123,#124,#125,#126,#127,#128,#129,#130,#131,#132,
#133,#134,#135,#136,#137,#138));
#97=(
BOUNDED_CURVE()
B_SPLINE_CURVE(3,(#596,#597,#598,#599,#600,#601,#602),.UNSPECIFIED.,.F.,
.F.)
B_SPLINE_CURVE_WITH_KNOTS((4,3,4),(0.,0.5,1.),.UNSPECIFIED.)
CURVE()
GEOMETRIC_REPRESENTATION_ITEM()
RATIONAL_B_SPLINE_CURVE((1.,0.80383391365544,0.80383391365544,1.,0.80383391365544,
0.80383391365544,1.))
REPRESENTATION_ITEM('')
);
#98=TOROIDAL_SURFACE('',#401,16.625,5.427073);
#99=CYLINDRICAL_SURFACE('',#399,4.);
#100=CYLINDRICAL_SURFACE('',#405,20.);
#101=CYLINDRICAL_SURFACE('',#419,9.50000000000001);
#102=FACE_BOUND('',#167,.T.);
#103=FACE_BOUND('',#168,.T.);
#104=FACE_BOUND('',#170,.T.);
#105=FACE_BOUND('',#171,.T.);
#106=FACE_BOUND('',#177,.T.);
#107=FACE_BOUND('',#178,.T.);
#108=FACE_BOUND('',#185,.T.);
#109=FACE_BOUND('',#186,.T.);
#110=FACE_BOUND('',#187,.T.);
#111=ELLIPSE('',#396,4.00002935941428,4.);
#112=ELLIPSE('',#397,4.00002935941428,4.);
#113=ELLIPSE('',#411,9.50006972860892,9.50000000000001);
#114=B_SPLINE_CURVE_WITH_KNOTS('',1,(#514,#515),.UNSPECIFIED.,.F.,.F.,(2,
2),(0.,1.),.UNSPECIFIED.);
#115=B_SPLINE_CURVE_WITH_KNOTS('',1,(#520,#521),.UNSPECIFIED.,.F.,.F.,(2,
2),(0.,1.),.UNSPECIFIED.);
#116=B_SPLINE_CURVE_WITH_KNOTS('',3,(#527,#528,#529,#530,#531),.UNSPECIFIED.,
.F.,.F.,(4,1,4),(0.,0.5,1.),.UNSPECIFIED.);
#117=B_SPLINE_CURVE_WITH_KNOTS('',3,(#533,#534,#535,#536,#537),.UNSPECIFIED.,
.F.,.F.,(4,1,4),(0.,0.5,1.),.UNSPECIFIED.);
#118=B_SPLINE_CURVE_WITH_KNOTS('',3,(#539,#540,#541,#542,#543,#544,#545,
#546,#547,#548),.UNSPECIFIED.,.F.,.F.,(4,2,2,2,4),(0.,0.25,0.5,0.75,1.),
.UNSPECIFIED.);
#119=B_SPLINE_CURVE_WITH_KNOTS('',3,(#550,#551,#552,#553,#554),.UNSPECIFIED.,
.F.,.F.,(4,1,4),(0.,0.5,1.),.UNSPECIFIED.);
#120=B_SPLINE_CURVE_WITH_KNOTS('',3,(#558,#559,#560,#561,#562),.UNSPECIFIED.,
.F.,.F.,(4,1,4),(0.,0.5,1.),.UNSPECIFIED.);
#121=B_SPLINE_CURVE_WITH_KNOTS('',3,(#564,#565,#566,#567,#568,#569,#570,
#571,#572,#573),.UNSPECIFIED.,.F.,.F.,(4,2,2,2,4),(0.,0.25,0.5,0.75,1.),
.UNSPECIFIED.);
#122=ADVANCED_FACE('',(#152),#139,.T.);
#123=ADVANCED_FACE('',(#102,#103),#99,.F.);
#124=ADVANCED_FACE('',(#153),#98,.T.);
#125=ADVANCED_FACE('',(#104,#105),#100,.T.);
#126=ADVANCED_FACE('',(#154),#140,.T.);
#127=ADVANCED_FACE('',(#155),#141,.T.);
#128=ADVANCED_FACE('',(#156),#142,.T.);
#129=ADVANCED_FACE('',(#157),#143,.T.);
#130=ADVANCED_FACE('',(#158),#144,.T.);
#131=ADVANCED_FACE('',(#106,#107,#159),#145,.T.);
#132=ADVANCED_FACE('',(#160),#146,.T.);
#133=ADVANCED_FACE('',(#161),#147,.T.);
#134=ADVANCED_FACE('',(#162),#148,.T.);
#135=ADVANCED_FACE('',(#163),#149,.T.);
#136=ADVANCED_FACE('',(#164),#150,.T.);
#137=ADVANCED_FACE('',(#108,#109),#101,.T.);
#138=ADVANCED_FACE('',(#110,#165),#151,.F.);
#139=PLANE('',#395);
#140=PLANE('',#406);
#141=PLANE('',#407);
#142=PLANE('',#408);
#143=PLANE('',#409);
#144=PLANE('',#410);
#145=PLANE('',#412);
#146=PLANE('',#413);
#147=PLANE('',#414);
#148=PLANE('',#415);
#149=PLANE('',#416);
#150=PLANE('',#417);
#151=PLANE('',#420);
#152=FACE_OUTER_BOUND('',#166,.T.);
#153=FACE_OUTER_BOUND('',#169,.T.);
#154=FACE_OUTER_BOUND('',#172,.T.);
#155=FACE_OUTER_BOUND('',#173,.T.);
#156=FACE_OUTER_BOUND('',#174,.T.);
#157=FACE_OUTER_BOUND('',#175,.T.);
#158=FACE_OUTER_BOUND('',#176,.T.);
#159=FACE_OUTER_BOUND('',#179,.T.);
#160=FACE_OUTER_BOUND('',#180,.T.);
#161=FACE_OUTER_BOUND('',#181,.T.);
#162=FACE_OUTER_BOUND('',#182,.T.);
#163=FACE_OUTER_BOUND('',#183,.T.);
#164=FACE_OUTER_BOUND('',#184,.T.);
#165=FACE_OUTER_BOUND('',#188,.T.);
#166=EDGE_LOOP('',(#197,#198,#199,#200,#201,#202));
#167=EDGE_LOOP('',(#203,#204,#205,#206,#207,#208));
#168=EDGE_LOOP('',(#209));
#169=EDGE_LOOP('',(#210,#211,#212,#213,#214,#215,#216,#217));
#170=EDGE_LOOP('',(#218,#219,#220));
#171=EDGE_LOOP('',(#221));
#172=EDGE_LOOP('',(#222));
#173=EDGE_LOOP('',(#223,#224,#225));
#174=EDGE_LOOP('',(#226,#227,#228));
#175=EDGE_LOOP('',(#229,#230,#231));
#176=EDGE_LOOP('',(#232,#233,#234,#235));
#177=EDGE_LOOP('',(#236,#237));
#178=EDGE_LOOP('',(#238,#239));
#179=EDGE_LOOP('',(#240,#241,#242,#243));
#180=EDGE_LOOP('',(#244,#245,#246,#247,#248));
#181=EDGE_LOOP('',(#249,#250,#251,#252));
#182=EDGE_LOOP('',(#253,#254,#255));
#183=EDGE_LOOP('',(#256,#257,#258,#259,#260,#261,#262,#263));
#184=EDGE_LOOP('',(#264,#265,#266,#267,#268,#269,#270,#271));
#185=EDGE_LOOP('',(#272));
#186=EDGE_LOOP('',(#273,#274,#275,#276));
#187=EDGE_LOOP('',(#277));
#188=EDGE_LOOP('',(#278));
#189=CIRCLE('',#393,9.50000000000001);
#190=CIRCLE('',#394,19.9999997746478);
#191=CIRCLE('',#398,4.);
#192=CIRCLE('',#400,20.);
#193=CIRCLE('',#402,20.);
#194=CIRCLE('',#403,20.);
#195=CIRCLE('',#404,20.);
#196=CIRCLE('',#418,9.50000000000001);
#197=ORIENTED_EDGE('',*,*,#309,.T.);
#198=ORIENTED_EDGE('',*,*,#310,.T.);
#199=ORIENTED_EDGE('',*,*,#311,.F.);
#200=ORIENTED_EDGE('',*,*,#312,.F.);
#201=ORIENTED_EDGE('',*,*,#313,.F.);
#202=ORIENTED_EDGE('',*,*,#314,.F.);
#203=ORIENTED_EDGE('',*,*,#315,.T.);
#204=ORIENTED_EDGE('',*,*,#315,.F.);
#205=ORIENTED_EDGE('',*,*,#316,.F.);
#206=ORIENTED_EDGE('',*,*,#317,.F.);
#207=ORIENTED_EDGE('',*,*,#317,.T.);
#208=ORIENTED_EDGE('',*,*,#318,.T.);
#209=ORIENTED_EDGE('',*,*,#319,.T.);
#210=ORIENTED_EDGE('',*,*,#320,.F.);
#211=ORIENTED_EDGE('',*,*,#313,.T.);
#212=ORIENTED_EDGE('',*,*,#321,.F.);
#213=ORIENTED_EDGE('',*,*,#322,.F.);
#214=ORIENTED_EDGE('',*,*,#323,.F.);
#215=ORIENTED_EDGE('',*,*,#324,.F.);
#216=ORIENTED_EDGE('',*,*,#325,.F.);
#217=ORIENTED_EDGE('',*,*,#326,.T.);
#218=ORIENTED_EDGE('',*,*,#327,.T.);
#219=ORIENTED_EDGE('',*,*,#328,.T.);
#220=ORIENTED_EDGE('',*,*,#324,.T.);
#221=ORIENTED_EDGE('',*,*,#329,.F.);
#222=ORIENTED_EDGE('',*,*,#329,.T.);
#223=ORIENTED_EDGE('',*,*,#330,.F.);
#224=ORIENTED_EDGE('',*,*,#323,.T.);
#225=ORIENTED_EDGE('',*,*,#331,.F.);
#226=ORIENTED_EDGE('',*,*,#332,.F.);
#227=ORIENTED_EDGE('',*,*,#321,.T.);
#228=ORIENTED_EDGE('',*,*,#312,.T.);
#229=ORIENTED_EDGE('',*,*,#314,.T.);
#230=ORIENTED_EDGE('',*,*,#320,.T.);
#231=ORIENTED_EDGE('',*,*,#333,.T.);
#232=ORIENTED_EDGE('',*,*,#334,.T.);
#233=ORIENTED_EDGE('',*,*,#328,.F.);
#234=ORIENTED_EDGE('',*,*,#335,.F.);
#235=ORIENTED_EDGE('',*,*,#336,.T.);
#236=ORIENTED_EDGE('',*,*,#337,.T.);
#237=ORIENTED_EDGE('',*,*,#337,.F.);
#238=ORIENTED_EDGE('',*,*,#318,.F.);
#239=ORIENTED_EDGE('',*,*,#316,.T.);
#240=ORIENTED_EDGE('',*,*,#338,.F.);
#241=ORIENTED_EDGE('',*,*,#339,.F.);
#242=ORIENTED_EDGE('',*,*,#340,.T.);
#243=ORIENTED_EDGE('',*,*,#341,.T.);
#244=ORIENTED_EDGE('',*,*,#342,.F.);
#245=ORIENTED_EDGE('',*,*,#341,.F.);
#246=ORIENTED_EDGE('',*,*,#343,.T.);
#247=ORIENTED_EDGE('',*,*,#335,.T.);
#248=ORIENTED_EDGE('',*,*,#344,.T.);
#249=ORIENTED_EDGE('',*,*,#344,.F.);
#250=ORIENTED_EDGE('',*,*,#327,.F.);
#251=ORIENTED_EDGE('',*,*,#330,.T.);
#252=ORIENTED_EDGE('',*,*,#345,.F.);
#253=ORIENTED_EDGE('',*,*,#346,.T.);
#254=ORIENTED_EDGE('',*,*,#325,.T.);
#255=ORIENTED_EDGE('',*,*,#334,.F.);
#256=ORIENTED_EDGE('',*,*,#326,.F.);
#257=ORIENTED_EDGE('',*,*,#346,.F.);
#258=ORIENTED_EDGE('',*,*,#336,.F.);
#259=ORIENTED_EDGE('',*,*,#343,.F.);
#260=ORIENTED_EDGE('',*,*,#340,.F.);
#261=ORIENTED_EDGE('',*,*,#347,.F.);
#262=ORIENTED_EDGE('',*,*,#309,.F.);
#263=ORIENTED_EDGE('',*,*,#333,.F.);
#264=ORIENTED_EDGE('',*,*,#331,.T.);
#265=ORIENTED_EDGE('',*,*,#322,.T.);
#266=ORIENTED_EDGE('',*,*,#332,.T.);
#267=ORIENTED_EDGE('',*,*,#311,.T.);
#268=ORIENTED_EDGE('',*,*,#348,.T.);
#269=ORIENTED_EDGE('',*,*,#338,.T.);
#270=ORIENTED_EDGE('',*,*,#342,.T.);
#271=ORIENTED_EDGE('',*,*,#345,.T.);
#272=ORIENTED_EDGE('',*,*,#349,.F.);
#273=ORIENTED_EDGE('',*,*,#310,.F.);
#274=ORIENTED_EDGE('',*,*,#347,.T.);
#275=ORIENTED_EDGE('',*,*,#339,.T.);
#276=ORIENTED_EDGE('',*,*,#348,.F.);
#277=ORIENTED_EDGE('',*,*,#319,.F.);
#278=ORIENTED_EDGE('',*,*,#349,.T.);
#279=VERTEX_POINT('',#502);
#280=VERTEX_POINT('',#503);
#281=VERTEX_POINT('',#505);
#282=VERTEX_POINT('',#507);
#283=VERTEX_POINT('',#509);
#284=VERTEX_POINT('',#511);
#285=VERTEX_POINT('',#516);
#286=VERTEX_POINT('',#517);
#287=VERTEX_POINT('',#519);
#288=VERTEX_POINT('',#522);
#289=VERTEX_POINT('',#525);
#290=VERTEX_POINT('',#532);
#291=VERTEX_POINT('',#538);
#292=VERTEX_POINT('',#549);
#293=VERTEX_POINT('',#555);
#294=VERTEX_POINT('',#557);
#295=VERTEX_POINT('',#563);
#296=VERTEX_POINT('',#576);
#297=VERTEX_POINT('',#579);
#298=VERTEX_POINT('',#583);
#299=VERTEX_POINT('',#591);
#300=VERTEX_POINT('',#593);
#301=VERTEX_POINT('',#603);
#302=VERTEX_POINT('',#604);
#303=VERTEX_POINT('',#606);
#304=VERTEX_POINT('',#607);
#305=VERTEX_POINT('',#609);
#306=VERTEX_POINT('',#611);
#307=VERTEX_POINT('',#615);
#308=VERTEX_POINT('',#628);
#309=EDGE_CURVE('',#279,#280,#350,.T.);
#310=EDGE_CURVE('',#280,#281,#189,.T.);
#311=EDGE_CURVE('',#282,#281,#351,.T.);
#312=EDGE_CURVE('',#283,#282,#352,.T.);
#313=EDGE_CURVE('',#284,#283,#190,.T.);
#314=EDGE_CURVE('',#279,#284,#353,.T.);
#315=EDGE_CURVE('',#285,#286,#114,.T.);
#316=EDGE_CURVE('',#287,#285,#111,.T.);
#317=EDGE_CURVE('',#288,#287,#115,.T.);
#318=EDGE_CURVE('',#287,#285,#112,.T.);
#319=EDGE_CURVE('',#289,#289,#191,.T.);
#320=EDGE_CURVE('',#284,#290,#116,.T.);
#321=EDGE_CURVE('',#291,#283,#117,.T.);
#322=EDGE_CURVE('',#292,#291,#118,.T.);
#323=EDGE_CURVE('',#293,#292,#119,.T.);
#324=EDGE_CURVE('',#294,#293,#192,.T.);
#325=EDGE_CURVE('',#295,#294,#120,.T.);
#326=EDGE_CURVE('',#295,#290,#121,.T.);
#327=EDGE_CURVE('',#293,#296,#193,.T.);
#328=EDGE_CURVE('',#296,#294,#194,.T.);
#329=EDGE_CURVE('',#297,#297,#195,.T.);
#330=EDGE_CURVE('',#293,#298,#354,.T.);
#331=EDGE_CURVE('',#298,#292,#355,.T.);
#332=EDGE_CURVE('',#291,#282,#356,.T.);
#333=EDGE_CURVE('',#290,#279,#357,.T.);
#334=EDGE_CURVE('',#299,#294,#358,.T.);
#335=EDGE_CURVE('',#300,#296,#359,.T.);
#336=EDGE_CURVE('',#300,#299,#360,.T.);
#337=EDGE_CURVE('',#301,#302,#97,.T.);
#338=EDGE_CURVE('',#303,#304,#361,.T.);
#339=EDGE_CURVE('',#305,#303,#113,.T.);
#340=EDGE_CURVE('',#305,#306,#362,.T.);
#341=EDGE_CURVE('',#306,#304,#363,.T.);
#342=EDGE_CURVE('',#304,#307,#364,.T.);
#343=EDGE_CURVE('',#306,#300,#365,.T.);
#344=EDGE_CURVE('',#296,#307,#366,.T.);
#345=EDGE_CURVE('',#307,#298,#367,.T.);
#346=EDGE_CURVE('',#299,#295,#368,.T.);
#347=EDGE_CURVE('',#280,#305,#369,.T.);
#348=EDGE_CURVE('',#281,#303,#370,.T.);
#349=EDGE_CURVE('',#308,#308,#196,.T.);
#350=LINE('',#501,#371);
#351=LINE('',#506,#372);
#352=LINE('',#508,#373);
#353=LINE('',#512,#374);
#354=LINE('',#582,#375);
#355=LINE('',#584,#376);
#356=LINE('',#586,#377);
#357=LINE('',#588,#378);
#358=LINE('',#590,#379);
#359=LINE('',#592,#380);
#360=LINE('',#594,#381);
#361=LINE('',#605,#382);
#362=LINE('',#610,#383);
#363=LINE('',#612,#384);
#364=LINE('',#614,#385);
#365=LINE('',#616,#386);
#366=LINE('',#617,#387);
#367=LINE('',#619,#388);
#368=LINE('',#621,#389);
#369=LINE('',#623,#390);
#370=LINE('',#625,#391);
#371=VECTOR('',#423,1.);
#372=VECTOR('',#426,1.);
#373=VECTOR('',#427,1.);
#374=VECTOR('',#430,1.);
#375=VECTOR('',#455,1.);
#376=VECTOR('',#456,1.);
#377=VECTOR('',#459,1.);
#378=VECTOR('',#462,1.);
#379=VECTOR('',#465,1.);
#380=VECTOR('',#466,1.);
#381=VECTOR('',#467,1.);
#382=VECTOR('',#470,1.);
#383=VECTOR('',#473,1.);
#384=VECTOR('',#474,1.);
#385=VECTOR('',#477,1.);
#386=VECTOR('',#478,1.);
#387=VECTOR('',#479,1.);
#388=VECTOR('',#482,1.);
#389=VECTOR('',#485,1.);
#390=VECTOR('',#488,1.);
#391=VECTOR('',#491,1.);
#392=AXIS2_PLACEMENT_3D('',#500,#421,#422);
#393=AXIS2_PLACEMENT_3D('',#504,#424,#425);
#394=AXIS2_PLACEMENT_3D('',#510,#428,#429);
#395=AXIS2_PLACEMENT_3D('',#513,#431,#432);
#396=AXIS2_PLACEMENT_3D('',#518,#433,#434);
#397=AXIS2_PLACEMENT_3D('',#523,#435,#436);
#398=AXIS2_PLACEMENT_3D('',#524,#437,#438);
#399=AXIS2_PLACEMENT_3D('',#526,#439,#440);
#400=AXIS2_PLACEMENT_3D('',#556,#441,#442);
#401=AXIS2_PLACEMENT_3D('',#574,#443,#444);
#402=AXIS2_PLACEMENT_3D('',#575,#445,#446);
#403=AXIS2_PLACEMENT_3D('',#577,#447,#448);
#404=AXIS2_PLACEMENT_3D('',#578,#449,#450);
#405=AXIS2_PLACEMENT_3D('',#580,#451,#452);
#406=AXIS2_PLACEMENT_3D('',#581,#453,#454);
#407=AXIS2_PLACEMENT_3D('',#585,#457,#458);
#408=AXIS2_PLACEMENT_3D('',#587,#460,#461);
#409=AXIS2_PLACEMENT_3D('',#589,#463,#464);
#410=AXIS2_PLACEMENT_3D('',#595,#468,#469);
#411=AXIS2_PLACEMENT_3D('',#608,#471,#472);
#412=AXIS2_PLACEMENT_3D('',#613,#475,#476);
#413=AXIS2_PLACEMENT_3D('',#618,#480,#481);
#414=AXIS2_PLACEMENT_3D('',#620,#483,#484);
#415=AXIS2_PLACEMENT_3D('',#622,#486,#487);
#416=AXIS2_PLACEMENT_3D('',#624,#489,#490);
#417=AXIS2_PLACEMENT_3D('',#626,#492,#493);
#418=AXIS2_PLACEMENT_3D('',#627,#494,#495);
#419=AXIS2_PLACEMENT_3D('',#629,#496,#497);
#420=AXIS2_PLACEMENT_3D('',#630,#498,#499);
#421=DIRECTION('',(0.,0.,1.));
#422=DIRECTION('',(1.,0.,0.));
#423=DIRECTION('',(0.999390827019096,0.,-0.034899496702501));
#424=DIRECTION('',(0.,-1.,0.));
#425=DIRECTION('',(0.,0.,1.));
#426=DIRECTION('',(0.999390827019096,0.,0.034899496702501));
#427=DIRECTION('',(0.,0.,-1.));
#428=DIRECTION('',(0.,-1.,0.));
#429=DIRECTION('',(0.,0.,-1.));
#430=DIRECTION('',(0.,0.,-1.));
#431=DIRECTION('',(0.,1.,0.));
#432=DIRECTION('',(0.,0.,1.));
#433=DIRECTION('',(-0.00383138950268316,0.999992660200303,0.));
#434=DIRECTION('',(0.999992660200303,0.00383138950268316,0.));
#435=DIRECTION('',(0.00383138950268316,-0.999992660200303,0.));
#436=DIRECTION('',(0.999992660200303,0.00383138950268316,0.));
#437=DIRECTION('',(0.,1.,0.));
#438=DIRECTION('',(0.,0.,1.));
#439=DIRECTION('',(0.,1.,0.));
#440=DIRECTION('',(0.,0.,1.));
#441=DIRECTION('',(0.,-1.,0.));
#442=DIRECTION('',(0.,0.,-1.));
#443=DIRECTION('',(0.,-1.,0.));
#444=DIRECTION('',(0.,0.,-1.));
#445=DIRECTION('',(0.,-1.,0.));
#446=DIRECTION('',(0.,0.,-1.));
#447=DIRECTION('',(0.,-1.,0.));
#448=DIRECTION('',(0.,0.,-1.));
#449=DIRECTION('',(0.,-1.,0.));
#450=DIRECTION('',(0.,0.,-1.));
#451=DIRECTION('',(0.,-1.,0.));
#452=DIRECTION('',(0.,0.,-1.));
#453=DIRECTION('',(0.,-1.,0.));
#454=DIRECTION('',(0.,0.,-1.));
#455=DIRECTION('',(0.,0.,-1.));
#456=DIRECTION('',(0.,1.,0.));
#457=DIRECTION('',(-1.,0.,0.));
#458=DIRECTION('',(0.,0.,1.));
#459=DIRECTION('',(0.,1.,0.));
#460=DIRECTION('',(-1.,0.,0.));
#461=DIRECTION('',(0.,0.,1.));
#462=DIRECTION('',(0.,1.,0.));
#463=DIRECTION('',(-1.,0.,0.));
#464=DIRECTION('',(0.,0.,1.));
#465=DIRECTION('',(0.,0.,-1.));
#466=DIRECTION('',(0.,0.,-1.));
#467=DIRECTION('',(-0.999390827019096,0.,0.034899496702501));
#468=DIRECTION('',(0.,-1.,0.));
#469=DIRECTION('',(0.,0.,-1.));
#470=DIRECTION('',(-0.999383500624754,-0.00382905555794925,-0.034899240859173));
#471=DIRECTION('',(-0.00383138950268316,0.999992660200303,0.));
#472=DIRECTION('',(0.999992660200303,0.00383138950268316,0.));
#473=DIRECTION('',(-0.999383500624754,-0.00382905555794925,0.034899240859173));
#474=DIRECTION('',(0.,0.,-1.));
#475=DIRECTION('',(0.00383138950268316,-0.999992660200303,0.));
#476=DIRECTION('',(0.999992660200303,0.00383138950268316,0.));
#477=DIRECTION('',(-0.999383500624754,-0.00382905555794925,-0.034899240859173));
#478=DIRECTION('',(-0.999383500624754,-0.00382905555794925,0.034899240859173));
#479=DIRECTION('',(0.,0.,-1.));
#480=DIRECTION('',(0.00383138950268316,-0.999992660200303,0.));
#481=DIRECTION('',(0.999992660200303,0.00383138950268316,0.));
#482=DIRECTION('',(-0.999390827019096,0.,-0.034899496702501));
#483=DIRECTION('',(0.,-1.,0.));
#484=DIRECTION('',(0.,0.,-1.));
#485=DIRECTION('',(0.,1.,0.));
#486=DIRECTION('',(-1.,0.,0.));
#487=DIRECTION('',(0.,0.,1.));
#488=DIRECTION('',(0.,-1.,0.));
#489=DIRECTION('',(0.034899496702501,0.,0.999390827019096));
#490=DIRECTION('',(0.999390827019096,0.,-0.034899496702501));
#491=DIRECTION('',(0.,-1.,0.));
#492=DIRECTION('',(0.034899496702501,0.,-0.999390827019096));
#493=DIRECTION('',(-0.999390827019096,0.,-0.034899496702501));
#494=DIRECTION('',(0.,1.,0.));
#495=DIRECTION('',(0.,0.,1.));
#496=DIRECTION('',(0.,1.,0.));
#497=DIRECTION('',(0.,0.,1.));
#498=DIRECTION('',(0.,-1.,0.));
#499=DIRECTION('',(0.,0.,-1.));
#500=CARTESIAN_POINT('',(0.,0.,0.));
#501=CARTESIAN_POINT('',(301.739568,96.044204,9.5));
#502=CARTESIAN_POINT('',(155.739568,96.044204,14.5984323457952));
#503=CARTESIAN_POINT('',(301.739568,96.0442038746151,9.50000000000001));
#504=CARTESIAN_POINT('',(301.739568,96.0442038746151,0.));
#505=CARTESIAN_POINT('',(301.739568,96.044204,-9.50000000000001));
#506=CARTESIAN_POINT('',(301.739568,96.044204,-9.5));
#507=CARTESIAN_POINT('',(155.739568,96.044204,-14.5984323457952));
#508=CARTESIAN_POINT('',(155.739568,96.044204,9.5));
#509=CARTESIAN_POINT('',(155.739568,96.044204,-14.282856099343));
#510=CARTESIAN_POINT('',(141.739568,96.0442037492301,0.));
#511=CARTESIAN_POINT('',(155.739568,96.044204,14.282856099343));
#512=CARTESIAN_POINT('',(155.739568,96.044204,9.5));
#513=CARTESIAN_POINT('',(121.739568,96.0442038746151,0.));
#514=CARTESIAN_POINT('',(301.739568,88.080602467433,-4.));
#515=CARTESIAN_POINT('',(301.739568,96.044204,-4.));
#516=CARTESIAN_POINT('',(301.739568,88.080602467433,-4.));
#517=CARTESIAN_POINT('',(301.739568,96.044204,-4.));
#518=CARTESIAN_POINT('',(301.739568,88.080602467433,0.));
#519=CARTESIAN_POINT('',(301.739568,88.080602467433,4.));
#520=CARTESIAN_POINT('',(301.739568,96.0442038746151,4.));
#521=CARTESIAN_POINT('',(301.739568,88.080602467433,4.));
#522=CARTESIAN_POINT('',(301.739568,96.0442038746151,4.));
#523=CARTESIAN_POINT('',(301.739568,88.080602467433,0.));
#524=CARTESIAN_POINT('',(301.739568,105.044204,0.));
#525=CARTESIAN_POINT('',(301.739568,105.044204,4.));
#526=CARTESIAN_POINT('',(301.739568,75.544204,0.));
#527=CARTESIAN_POINT('',(155.739568,96.044204,14.282856099343));
#528=CARTESIAN_POINT('',(155.739568,96.0139126506576,14.3362693199951));
#529=CARTESIAN_POINT('',(155.739568,95.9519438776082,14.4422937554672));
#530=CARTESIAN_POINT('',(155.739568,95.8871252873138,14.5466692389713));
#531=CARTESIAN_POINT('',(155.739568,95.8539821127232,14.5984323457913));
#532=CARTESIAN_POINT('',(155.739568,95.8539821127299,14.5984323457952));
#533=CARTESIAN_POINT('',(155.739568,95.8539821127233,-14.5984323457912));
#534=CARTESIAN_POINT('',(155.739568,95.8871141025272,-14.5466867074036));
#535=CARTESIAN_POINT('',(155.739568,95.9519227152583,-14.442328937892));
#536=CARTESIAN_POINT('',(155.739568,96.0139026149166,-14.3362870161777));
#537=CARTESIAN_POINT('',(155.739568,96.044204,-14.282856099343));
#538=CARTESIAN_POINT('',(155.739568,95.8539821127299,-14.5984323457952));
#539=CARTESIAN_POINT('',(155.739568,87.7344258872793,-14.5984323457952));
#540=CARTESIAN_POINT('',(156.468343685699,88.1656273068516,-14.5729829380637));
#541=CARTESIAN_POINT('',(157.118312606294,88.7276783976959,-14.5502855232108));
#542=CARTESIAN_POINT('',(158.063221224131,90.1140594764366,-14.5172885871765));
#543=CARTESIAN_POINT('',(158.346599729277,90.9384381393656,-14.5073927917194));
#544=CARTESIAN_POINT('',(158.348827278578,92.6395922564722,-14.5073150039837));
#545=CARTESIAN_POINT('',(158.069129295191,93.4643394289172,-14.5170822727889));
#546=CARTESIAN_POINT('',(157.117202539013,94.8636922736269,-14.5503242876144));
#547=CARTESIAN_POINT('',(156.469053923395,95.4223604602726,-14.5729581360168));
#548=CARTESIAN_POINT('',(155.739567999996,95.8539821127233,-14.5984323457953));
#549=CARTESIAN_POINT('',(155.739568,87.7344258872792,-14.5984323457952));
#550=CARTESIAN_POINT('',(155.739568,87.5442043154099,-14.2828566555103));
#551=CARTESIAN_POINT('',(155.739568,87.574531167281,-14.3363324670566));
#552=CARTESIAN_POINT('',(155.739568,87.6365392554779,-14.4424185163912));
#553=CARTESIAN_POINT('',(155.739568,87.7013223235954,-14.5467311034049));
#554=CARTESIAN_POINT('',(155.739568,87.7344258872793,-14.5984323457952));
#555=CARTESIAN_POINT('',(155.739568,87.544204,-14.2828568570857));
#556=CARTESIAN_POINT('',(141.739568,87.544204,0.));
#557=CARTESIAN_POINT('',(155.739568,87.544204,14.2828568570857));
#558=CARTESIAN_POINT('',(155.739568,87.7344258872793,14.5984323457952));
#559=CARTESIAN_POINT('',(155.739568,87.7013406232048,14.5467596837884));
#560=CARTESIAN_POINT('',(155.739568,87.6365739883441,14.4424762205264));
#561=CARTESIAN_POINT('',(155.739568,87.5745476693184,14.3363615654922));
#562=CARTESIAN_POINT('',(155.739568,87.5442043116286,14.2828566488426));
#563=CARTESIAN_POINT('',(155.739568,87.7344258872792,14.5984323457952));
#564=CARTESIAN_POINT('',(155.739568,87.7344258872793,14.5984323457952));
#565=CARTESIAN_POINT('',(156.468343685699,88.1656273068516,14.5729829380637));
#566=CARTESIAN_POINT('',(157.118312606294,88.7276783976959,14.5502855232108));
#567=CARTESIAN_POINT('',(158.063221224131,90.1140594764366,14.5172885871765));
#568=CARTESIAN_POINT('',(158.346599729277,90.9384381393656,14.5073927917194));
#569=CARTESIAN_POINT('',(158.348827278578,92.6395922564722,14.5073150039837));
#570=CARTESIAN_POINT('',(158.069129295191,93.4643394289172,14.5170822727889));
#571=CARTESIAN_POINT('',(157.117202539013,94.8636922736269,14.5503242876144));
#572=CARTESIAN_POINT('',(156.469053923395,95.4223604602726,14.5729581360168));
#573=CARTESIAN_POINT('',(155.739567999996,95.8539821127233,14.5984323457953));
#574=CARTESIAN_POINT('',(141.739568,91.794204,0.));
#575=CARTESIAN_POINT('',(141.739568,87.544204,0.));
#576=CARTESIAN_POINT('',(161.739568,87.544204,0.));
#577=CARTESIAN_POINT('',(141.739568,87.544204,0.));
#578=CARTESIAN_POINT('',(141.739568,57.544204,0.));
#579=CARTESIAN_POINT('',(141.739568,57.544204,-20.));
#580=CARTESIAN_POINT('',(141.739568,47.044204,0.));
#581=CARTESIAN_POINT('',(141.739568,57.544204,0.));
#582=CARTESIAN_POINT('',(155.739568,87.544204,9.5));
#583=CARTESIAN_POINT('',(155.739568,87.544204,-14.5984323457952));
#584=CARTESIAN_POINT('',(155.739568,92.044204,-14.5984323457952));
#585=CARTESIAN_POINT('',(155.739568,92.544204,9.5));
#586=CARTESIAN_POINT('',(155.739568,92.044204,-14.5984323457952));
#587=CARTESIAN_POINT('',(155.739568,92.544204,9.5));
#588=CARTESIAN_POINT('',(155.739568,92.044204,14.5984323457952));
#589=CARTESIAN_POINT('',(155.739568,92.544204,9.5));
#590=CARTESIAN_POINT('',(155.739568,87.544204,9.5));
#591=CARTESIAN_POINT('',(155.739568,87.544204,14.5984323457952));
#592=CARTESIAN_POINT('',(161.739568,87.544204,9.5));
#593=CARTESIAN_POINT('',(161.739568,87.544204,14.3889077288447));
#594=CARTESIAN_POINT('',(301.739568,87.544204,9.5));
#595=CARTESIAN_POINT('',(161.739568,87.544204,9.5));
#596=CARTESIAN_POINT('',(301.739568,88.080602467433,8.53639846743296));
#597=CARTESIAN_POINT('',(306.755315633118,88.0998198913146,8.55561589131464));
#598=CARTESIAN_POINT('',(310.308798769231,88.1134347692308,5.01574763311786));
#599=CARTESIAN_POINT('',(310.308798769231,88.1134347692308,0.));
#600=CARTESIAN_POINT('',(310.308798769231,88.1134347692308,-5.01574763311786));
#601=CARTESIAN_POINT('',(306.755315633118,88.0998198913146,-8.55561589131465));
#602=CARTESIAN_POINT('',(301.739568,88.080602467433,-8.53639846743296));
#603=CARTESIAN_POINT('',(301.739568,88.080602467433,8.53639846743296));
#604=CARTESIAN_POINT('',(301.739568,88.080602467433,-8.53639846743296));
#605=CARTESIAN_POINT('',(301.754735493959,88.0806605804366,-9.49947033943969));
#606=CARTESIAN_POINT('',(301.739568,88.080602467433,-9.5));
#607=CARTESIAN_POINT('',(292.239568,88.044204,-9.8317473101716));
#608=CARTESIAN_POINT('',(301.739568,88.080602467433,0.));
#609=CARTESIAN_POINT('',(301.739568,88.080602467433,9.50000000000001));
#610=CARTESIAN_POINT('',(301.754735493959,88.0806605804366,9.49947033943969));
#611=CARTESIAN_POINT('',(292.239568,88.044204,9.8317473101716));
#612=CARTESIAN_POINT('',(292.239568,88.044204,9.5));
#613=CARTESIAN_POINT('',(292.239568,88.044204,9.5));
#614=CARTESIAN_POINT('',(301.754735493959,88.0806605804366,-9.49947033943969));
#615=CARTESIAN_POINT('',(161.739568,87.544204,-14.3889077288447));
#616=CARTESIAN_POINT('',(301.754735493959,88.0806605804366,9.49947033943969));
#617=CARTESIAN_POINT('',(161.739568,87.544204,9.5));
#618=CARTESIAN_POINT('',(292.239568,88.044204,9.5));
#619=CARTESIAN_POINT('',(301.739568,87.544204,-9.5));
#620=CARTESIAN_POINT('',(161.739568,87.544204,9.5));
#621=CARTESIAN_POINT('',(155.739568,92.044204,14.5984323457952));
#622=CARTESIAN_POINT('',(155.739568,92.544204,9.5));
#623=CARTESIAN_POINT('',(301.739568,92.044204,9.5));
#624=CARTESIAN_POINT('',(301.739568,92.044204,9.5));
#625=CARTESIAN_POINT('',(301.739568,92.044204,-9.5));
#626=CARTESIAN_POINT('',(301.739568,92.044204,-9.5));
#627=CARTESIAN_POINT('',(301.739568,105.044204,0.));
#628=CARTESIAN_POINT('',(301.739568,105.044204,9.50000000000001));
#629=CARTESIAN_POINT('',(301.739568,75.544204,0.));
#630=CARTESIAN_POINT('',(306.739568,105.044204,0.));
#631=(
GEOMETRIC_REPRESENTATION_CONTEXT(3)
GLOBAL_UNCERTAINTY_ASSIGNED_CONTEXT((#632))
GLOBAL_UNIT_ASSIGNED_CONTEXT((#638,#634,#633))
REPRESENTATION_CONTEXT('QA_160_N','TOP_LEVEL_ASSEMBLY_PART')
);
#632=UNCERTAINTY_MEASURE_WITH_UNIT(LENGTH_MEASURE(0.0508),#638,
'DISTANCE_ACCURACY_VALUE','Maximum Tolerance applied to model');
#633=(
NAMED_UNIT(*)
SI_UNIT($,.STERADIAN.)
SOLID_ANGLE_UNIT()
);
#634=(
CONVERSION_BASED_UNIT('DEGREE',#636)
NAMED_UNIT(#635)
PLANE_ANGLE_UNIT()
);
#635=DIMENSIONAL_EXPONENTS(0.,0.,0.,0.,0.,0.,0.);
#636=PLANE_ANGLE_MEASURE_WITH_UNIT(PLANE_ANGLE_MEASURE(0.0174532925),#637);
#637=(
NAMED_UNIT(*)
PLANE_ANGLE_UNIT()
SI_UNIT($,.RADIAN.)
);
#638=(
LENGTH_UNIT()
NAMED_UNIT(*)
SI_UNIT(.MILLI.,.METRE.)
);
ENDSEC;
END-ISO-10303-21;
